  0
SECTION
  2
HEADER
  9
$ACADVER
  1
AC1015
  9
$ACADMAINTVER
 70
     6
  9
$DWGCODEPAGE
  3
ANSI_1254
  9
$INSBASE
 10
0.0
 20
0.0
 30
0.0
  9
$EXTMIN
 10
0.0
 20
0.0
 30
0.0
  9
$EXTMAX
 10
279.4
 20
215.9
 30
0.0
  9
$LIMMIN
 10
0.0
 20
0.0
  9
$LIMMAX
 10
279.4
 20
215.9
  9
$ORTHOMODE
 70
     0
  9
$REGENMODE
 70
     1
  9
$FILLMODE
 70
     1
  9
$QTEXTMODE
 70
     0
  9
$MIRRTEXT
 70
     1
  9
$LTSCALE
 40
1.0
  9
$ATTMODE
 70
     1
  9
$TEXTSIZE
 40
3.5
  9
$TRACEWID
 40
1.0
  9
$TEXTSTYLE
  7
Standard
  9
$CLAYER
  8
0
  9
$CELTYPE
  6
ByLayer
  9
$CECOLOR
 62
   256
  9
$CELTSCALE
 40
1.0
  9
$DISPSILH
 70
     0
  9
$DIMSCALE
 40
1.0
  9
$DIMASZ
 40
3.5
  9
$DIMEXO
 40
1.0
  9
$DIMDLI
 40
3.75
  9
$DIMRND
 40
0.0
  9
$DIMDLE
 40
0.0
  9
$DIMEXE
 40
1.0
  9
$DIMTP
 40
0.0
  9
$DIMTM
 40
0.0
  9
$DIMTXT
 40
3.5
  9
$DIMCEN
 40
2.5
  9
$DIMTSZ
 40
0.0
  9
$DIMTOL
 70
     0
  9
$DIMLIM
 70
     0
  9
$DIMTIH
 70
     1
  9
$DIMTOH
 70
     1
  9
$DIMSE1
 70
     0
  9
$DIMSE2
 70
     0
  9
$DIMTAD
 70
     1
  9
$DIMZIN
 70
     0
  9
$DIMBLK
  1

  9
$DIMASO
 70
     1
  9
$DIMSHO
 70
     1
  9
$DIMPOST
  1

  9
$DIMAPOST
  1

  9
$DIMALT
 70
     0
  9
$DIMALTD
 70
     3
  9
$DIMALTF
 40
0.0393700787
  9
$DIMLFAC
 40
1.0
  9
$DIMTOFL
 70
     1
  9
$DIMTVP
 40
0.0
  9
$DIMTIX
 70
     0
  9
$DIMSOXD
 70
     0
  9
$DIMSAH
 70
     0
  9
$DIMBLK1
  1

  9
$DIMBLK2
  1

  9
$DIMSTYLE
  2
ISO-25
  9
$DIMCLRD
 70
     0
  9
$DIMCLRE
 70
     0
  9
$DIMCLRT
 70
     0
  9
$DIMTFAC
 40
1.0
  9
$DIMGAP
 40
1.524
  9
$DIMJUST
 70
     0
  9
$DIMSD1
 70
     0
  9
$DIMSD2
 70
     0
  9
$DIMTOLJ
 70
     0
  9
$DIMTZIN
 70
     0
  9
$DIMALTZ
 70
     0
  9
$DIMALTTZ
 70
     0
  9
$DIMUPT
 70
     0
  9
$DIMDEC
 70
     2
  9
$DIMTDEC
 70
     2
  9
$DIMALTU
 70
     2
  9
$DIMALTTD
 70
     3
  9
$DIMTXSTY
  7
Standard
  9
$DIMAUNIT
 70
     0
  9
$DIMADEC
 70
     2
  9
$DIMALTRND
 40
0.0
  9
$DIMAZIN
 70
     0
  9
$DIMDSEP
 70
    44
  9
$DIMATFIT
 70
     3
  9
$DIMFRAC
 70
     0
  9
$DIMLDRBLK
  1

  9
$DIMLUNIT
 70
     2
  9
$DIMLWD
 70
    -2
  9
$DIMLWE
 70
    -2
  9
$DIMTMOVE
 70
     0
  9
$LUNITS
 70
     2
  9
$LUPREC
 70
     2
  9
$SKETCHINC
 40
1.0
  9
$FILLETRAD
 40
10.0
  9
$AUNITS
 70
     0
  9
$AUPREC
 70
     2
  9
$MENU
  1
.
  9
$ELEVATION
 40
0.0
  9
$PELEVATION
 40
0.0
  9
$THICKNESS
 40
0.0
  9
$LIMCHECK
 70
     0
  9
$CHAMFERA
 40
0.0
  9
$CHAMFERB
 40
0.0
  9
$CHAMFERC
 40
0.0
  9
$CHAMFERD
 40
0.0
  9
$SKPOLY
 70
     0
  9
$TDCREATE
 40
2459935.709482084
  9
$TDUCREATE
 40
2459935.584482084
  9
$TDUPDATE
 40
2459935.709482257
  9
$TDUUPDATE
 40
2459935.584482257
  9
$TDINDWG
 40
0.0000000116
  9
$TDUSRTIMER
 40
0.0000000116
  9
$USRTIMER
 70
     1
  9
$ANGBASE
 50
0.0
  9
$ANGDIR
 70
     0
  9
$PDMODE
 70
     0
  9
$PDSIZE
 40
-1.0
  9
$PLINEWID
 40
0.0
  9
$SPLFRAME
 70
     0
  9
$SPLINETYPE
 70
     6
  9
$SPLINESEGS
 70
     8
  9
$HANDSEED
  5
10E
  9
$SURFTAB1
 70
     6
  9
$SURFTAB2
 70
     6
  9
$SURFTYPE
 70
     6
  9
$SURFU
 70
     6
  9
$SURFV
 70
     6
  9
$UCSBASE
  2

  9
$UCSNAME
  2

  9
$UCSORG
 10
0.0
 20
0.0
 30
0.0
  9
$UCSXDIR
 10
1.0
 20
0.0
 30
0.0
  9
$UCSYDIR
 10
0.0
 20
1.0
 30
0.0
  9
$UCSORTHOREF
  2

  9
$UCSORTHOVIEW
 70
     0
  9
$UCSORGTOP
 10
0.0
 20
0.0
 30
0.0
  9
$UCSORGBOTTOM
 10
0.0
 20
0.0
 30
0.0
  9
$UCSORGLEFT
 10
0.0
 20
0.0
 30
0.0
  9
$UCSORGRIGHT
 10
0.0
 20
0.0
 30
0.0
  9
$UCSORGFRONT
 10
0.0
 20
0.0
 30
0.0
  9
$UCSORGBACK
 10
0.0
 20
0.0
 30
0.0
  9
$PUCSBASE
  2

  9
$PUCSNAME
  2

  9
$PUCSORG
 10
0.0
 20
0.0
 30
0.0
  9
$PUCSXDIR
 10
1.0
 20
0.0
 30
0.0
  9
$PUCSYDIR
 10
0.0
 20
1.0
 30
0.0
  9
$PUCSORTHOREF
  2

  9
$PUCSORTHOVIEW
 70
     0
  9
$PUCSORGTOP
 10
0.0
 20
0.0
 30
0.0
  9
$PUCSORGBOTTOM
 10
0.0
 20
0.0
 30
0.0
  9
$PUCSORGLEFT
 10
0.0
 20
0.0
 30
0.0
  9
$PUCSORGRIGHT
 10
0.0
 20
0.0
 30
0.0
  9
$PUCSORGFRONT
 10
0.0
 20
0.0
 30
0.0
  9
$PUCSORGBACK
 10
0.0
 20
0.0
 30
0.0
  9
$USERI1
 70
     0
  9
$USERI2
 70
     0
  9
$USERI3
 70
     0
  9
$USERI4
 70
     0
  9
$USERI5
 70
     0
  9
$USERR1
 40
0.0
  9
$USERR2
 40
0.0
  9
$USERR3
 40
0.0
  9
$USERR4
 40
0.0
  9
$USERR5
 40
0.0
  9
$WORLDVIEW
 70
     1
  9
$SHADEDGE
 70
     3
  9
$SHADEDIF
 70
    70
  9
$TILEMODE
 70
     1
  9
$MAXACTVP
 70
    64
  9
$PINSBASE
 10
0.0
 20
0.0
 30
0.0
  9
$PLIMCHECK
 70
     0
  9
$PEXTMIN
 10
1.0000000000E+20
 20
1.0000000000E+20
 30
1.0000000000E+20
  9
$PEXTMAX
 10
-1.0000000000E+20
 20
-1.0000000000E+20
 30
-1.0000000000E+20
  9
$PLIMMIN
 10
0.0
 20
0.0
  9
$PLIMMAX
 10
420.0
 20
297.0
  9
$UNITMODE
 70
     0
  9
$VISRETAIN
 70
     1
  9
$PLINEGEN
 70
     0
  9
$PSLTSCALE
 70
     1
  9
$TREEDEPTH
 70
  3020
  9
$CMLSTYLE
  2
Standard
  9
$CMLJUST
 70
     0
  9
$CMLSCALE
 40
20.0
  9
$PROXYGRAPHICS
 70
     1
  9
$MEASUREMENT
 70
     1
  9
$CELWEIGHT
370
    -1
  9
$ENDCAPS
280
     0
  9
$JOINSTYLE
280
     0
  9
$LWDISPLAY
290
     1
  9
$INSUNITS
 70
     4
  9
$HYPERLINKBASE
  1

  9
$STYLESHEET
  1

  9
$XEDIT
290
     1
  9
$CEPSNTYPE
380
     0
  9
$PSTYLEMODE
290
     1
  9
$FINGERPRINTGUID
  2
{7c2cddc3-99da-48e9-a4e8-4b67aac1e087}
  9
$VERSIONGUID
  2
{FAEB1C32-E019-11D5-929B-00C0DF256EC4}
  9
$EXTNAMES
290
     1
  9
$PSVPSCALE
 40
0.0
  9
$OLESTARTUP
290
     0
  0
ENDSEC
  0
SECTION
  2
CLASSES
  0
CLASS
  1
ACDBDICTIONARYWDFLT
  2
AcDbDictionaryWithDefault
  3
ObjectDBX Classes
 90
        0
280
     0
281
     0
  0
CLASS
  1
VISUALSTYLE
  2
AcDbVisualStyle
  3
ObjectDBX Classes
 90
     4095
280
     0
281
     0
  0
CLASS
  1
MATERIAL
  2
AcDbMaterial
  3
ObjectDBX Classes
 90
     1153
280
     0
281
     0
  0
CLASS
  1
SCALE
  2
AcDbScale
  3
ObjectDBX Classes
 90
     1153
280
     0
281
     0
  0
CLASS
  1
TABLESTYLE
  2
AcDbTableStyle
  3
ObjectDBX Classes
 90
     4095
280
     0
281
     0
  0
CLASS
  1
MLEADERSTYLE
  2
AcDbMLeaderStyle
  3
ACDB_MLEADERSTYLE_CLASS
 90
     4095
280
     0
281
     0
  0
CLASS
  1
SUN
  2
AcDbSun
  3
SCENEOE
 90
     1153
280
     0
281
     0
  0
CLASS
  1
ACDBPLACEHOLDER
  2
AcDbPlaceHolder
  3
ObjectDBX Classes
 90
        0
280
     0
281
     0
  0
CLASS
  1
LAYOUT
  2
AcDbLayout
  3
ObjectDBX Classes
 90
        0
280
     0
281
     0
  0
ENDSEC
  0
SECTION
  2
TABLES
  0
TABLE
  2
VPORT
  5
8
330
0
100
AcDbSymbolTable
 70
     1
  0
VPORT
  5
29
330
8
100
AcDbSymbolTableRecord
100
AcDbViewportTableRecord
  2
*Active
 70
     0
 10
0.0
 20
0.0
 11
1.0
 21
1.0
 12
139.7
 22
107.95
 13
0.0
 23
0.0
 14
10.0
 24
10.0
 15
10.0
 25
10.0
 16
0.0
 26
0.0
 36
1.0
 17
0.0
 27
0.0
 37
0.0
 40
215.9
 41
1.2941176471
 42
50.0
 43
0.0
 44
0.0
 50
0.0
 51
0.0
 71
     0
 72
  2000
 73
     1
 74
     3
 75
     0
 76
     0
 77
     0
 78
     0
281
     0
 65
     1
110
0.0
120
0.0
130
0.0
111
1.0
121
0.0
131
0.0
112
0.0
122
1.0
132
0.0
 79
     0
146
0.0
  0
ENDTAB
  0
TABLE
  2
LTYPE
  5
5
330
0
100
AcDbSymbolTable
 70
     6
  0
LTYPE
  5
14
330
5
100
AcDbSymbolTableRecord
100
AcDbLinetypeTableRecord
  2
ByBlock
 70
     0
  3

 72
    65
 73
     0
 40
0.0
  0
LTYPE
  5
15
330
5
100
AcDbSymbolTableRecord
100
AcDbLinetypeTableRecord
  2
ByLayer
 70
     0
  3

 72
    65
 73
     0
 40
0.0
  0
LTYPE
  5
16
330
5
100
AcDbSymbolTableRecord
100
AcDbLinetypeTableRecord
  2
Continuous
 70
     0
  3
Solid line
 72
    65
 73
     0
 40
0.0
  0
LTYPE
  5
6E
330
5
100
AcDbSymbolTableRecord
100
AcDbLinetypeTableRecord
  2
HIDDEN
 70
     0
  3
Hidden __ __ __ __ __ __ __ __ __ __ __ __ __ __
 72
    65
 73
     2
 40
1.905
 49
1.27
 74
     0
 49
-0.635
 74
     0
  0
LTYPE
  5
6F
330
5
100
AcDbSymbolTableRecord
100
AcDbLinetypeTableRecord
  2
PHANTOM
 70
     0
  3
Phantom ______  __  __  ______  __  __  ______
 72
    65
 73
     6
 40
12.7
 49
6.35
 74
     0
 49
-1.27
 74
     0
 49
1.27
 74
     0
 49
-1.27
 74
     0
 49
1.27
 74
     0
 49
-1.27
 74
     0
  0
LTYPE
  5
70
330
5
100
AcDbSymbolTableRecord
100
AcDbLinetypeTableRecord
  2
CENTER
 70
     0
  3
Center ____ _ ____ _ ____ _ ____ _ ____ _ ____
 72
    65
 73
     4
 40
10.16
 49
6.35
 74
     0
 49
-1.27
 74
     0
 49
1.27
 74
     0
 49
-1.27
 74
     0
  0
LTYPE
  5
71
330
5
100
AcDbSymbolTableRecord
100
AcDbLinetypeTableRecord
  2
CENTERX2
 70
     0
  3
Center (2x) ________  __  ________  __  _____
 72
    65
 73
     4
 40
20.32
 49
12.7
 74
     0
 49
-2.54
 74
     0
 49
2.54
 74
     0
 49
-2.54
 74
     0
  0
LTYPE
  5
72
330
5
100
AcDbSymbolTableRecord
100
AcDbLinetypeTableRecord
  2
DOT2
 70
     0
  3
Dot (.5x) ........................................
 72
    65
 73
     2
 40
0.635
 49
0.0
 74
     0
 49
-0.635
 74
     0
  0
ENDTAB
  0
TABLE
  2
LAYER
  5
2
330
0
100
AcDbSymbolTable
 70
    17
  0
LAYER
  5
10
330
2
100
AcDbSymbolTableRecord
100
AcDbLayerTableRecord
  2
0
 70
     0
 62
     7
  6
Continuous
370
    -3
390
F
  0
LAYER
  5
73
330
2
100
AcDbSymbolTableRecord
100
AcDbLayerTableRecord
  2
FORMAT
 70
     0
 62
     7
  6
Continuous
370
    -3
390
F
  0
LAYER
  5
74
330
2
100
AcDbSymbolTableRecord
100
AcDbLayerTableRecord
  2
YARDIMCI_GEOMETRI
 70
     0
 62
    -6
  6
Continuous
290
     0
370
    -3
390
F
  0
LAYER
  5
75
330
2
100
AcDbSymbolTableRecord
100
AcDbLayerTableRecord
  2
SAYFA_CERCEVESI
 70
     0
 62
     7
  6
Continuous
370
    25
390
F
  0
LAYER
  5
76
330
2
100
AcDbSymbolTableRecord
100
AcDbLayerTableRecord
  2
ANTET
 70
     0
 62
     7
  6
Continuous
370
    -3
390
F
  0
LAYER
  5
77
330
2
100
AcDbSymbolTableRecord
100
AcDbLayerTableRecord
  2
OLCU
 70
     0
 62
   150
  6
Continuous
370
    -3
390
F
  0
LAYER
  5
78
330
2
100
AcDbSymbolTableRecord
100
AcDbLayerTableRecord
  2
METIN
 70
     0
 62
    96
  6
Continuous
370
    -3
390
F
  0
LAYER
  5
79
330
2
100
AcDbSymbolTableRecord
100
AcDbLayerTableRecord
  2
BALON
 70
     0
 62
     5
  6
Continuous
370
    -3
390
F
  0
LAYER
  5
7A
330
2
100
AcDbSymbolTableRecord
100
AcDbLayerTableRecord
  2
VURGU
 70
     0
 62
     7
  6
Continuous
370
    -3
390
F
  0
LAYER
  5
7B
330
2
100
AcDbSymbolTableRecord
100
AcDbLayerTableRecord
  2
SILIK
 70
     0
 62
     7
  6
Continuous
370
    -3
390
F
  0
LAYER
  5
7C
330
2
100
AcDbSymbolTableRecord
100
AcDbLayerTableRecord
  2
MODEL
 70
     0
 62
     7
  6
Continuous
370
    -3
390
F
  0
LAYER
  5
7D
330
2
100
AcDbSymbolTableRecord
100
AcDbLayerTableRecord
  2
DETAYLANDıRMA
 70
     0
 62
   190
  6
Continuous
370
    -3
390
F
  0
LAYER
  5
7E
330
2
100
AcDbSymbolTableRecord
100
AcDbLayerTableRecord
  2
TOLERANS
 70
     0
 62
   230
  6
Continuous
370
    -3
390
F
  0
LAYER
  5
7F
330
2
100
AcDbSymbolTableRecord
100
AcDbLayerTableRecord
  2
MERKEZ_CIZGILERI
 70
     0
 62
    30
  6
Continuous
370
    -3
390
F
  0
LAYER
  5
80
330
2
100
AcDbSymbolTableRecord
100
AcDbLayerTableRecord
  2
KESIT-DETAY_CIZGILERI
 70
     0
 62
     7
  6
Continuous
370
    -3
390
F
  0
LAYER
  5
81
330
2
100
AcDbSymbolTableRecord
100
AcDbLayerTableRecord
  2
\U+041E\U+0421\U+0415\U+0412\U+042B\U+0415
 70
     0
 62
     7
  6
Continuous
370
    -3
390
F
  0
LAYER
  5
82
330
2
100
AcDbSymbolTableRecord
100
AcDbLayerTableRecord
  2
\U+0412\U+041E\U+0414\U+042F\U+041D\U+042B\U+0415_\U+0417\U+041D\U+0410\U+041A\U+0418
 70
     0
 62
    11
  6
Continuous
370
    -3
390
F
  0
ENDTAB
  0
TABLE
  2
STYLE
  5
3
330
0
100
AcDbSymbolTable
 70
     1
  0
STYLE
  5
11
330
3
100
AcDbSymbolTableRecord
100
AcDbTextStyleTableRecord
  2
Standard
 70
     0
 40
0.0
 41
1.0
 50
0.0
 71
     0
 42
3.5
  3
txt
  4

  0
ENDTAB
  0
TABLE
  2
VIEW
  5
6
330
0
100
AcDbSymbolTable
 70
     0
  0
ENDTAB
  0
TABLE
  2
UCS
  5
7
330
0
100
AcDbSymbolTable
 70
     0
  0
ENDTAB
  0
TABLE
  2
APPID
  5
9
330
0
100
AcDbSymbolTable
 70
     1
  0
APPID
  5
12
330
9
100
AcDbSymbolTableRecord
100
AcDbRegAppTableRecord
  2
ACAD
 70
     0
  0
ENDTAB
  0
TABLE
  2
DIMSTYLE
  5
A
330
0
100
AcDbSymbolTable
 70
     1
100
AcDbDimStyleTable
  0
DIMSTYLE
105
27
330
A
100
AcDbSymbolTableRecord
100
AcDbDimStyleTableRecord
  2
ISO-25
 70
     0
 41
2.5
 42
0.625
 43
3.75
 44
1.25
 73
     0
 74
     0
 77
     1
 78
     8
140
2.5
141
2.5
143
0.0393700787
147
0.625
171
     3
172
     1
178
     0
271
     2
272
     2
274
     3
278
    44
283
     0
284
     8
340
11
  0
ENDTAB
  0
TABLE
  2
BLOCK_RECORD
  5
1
330
0
100
AcDbSymbolTable
 70
     2
  0
BLOCK_RECORD
  5
1F
330
1
100
AcDbSymbolTableRecord
100
AcDbBlockTableRecord
  2
*Model_Space
340
22
  0
BLOCK_RECORD
  5
1B
330
1
100
AcDbSymbolTableRecord
100
AcDbBlockTableRecord
  2
*Paper_Space
340
1E
  0
BLOCK_RECORD
  5
23
330
1
100
AcDbSymbolTableRecord
100
AcDbBlockTableRecord
  2
*Paper_Space0
340
26
  0
BLOCK_RECORD
  5
8E
330
1
100
AcDbSymbolTableRecord
100
AcDbBlockTableRecord
  2
SW_CENTERMARKSYMBOL_0
340
0
102
{BLKREFS
331
99
102
}
  0
ENDTAB
  0
ENDSEC
  0
SECTION
  2
BLOCKS
  0
BLOCK
  5
20
330
1F
100
AcDbEntity
  8
0
100
AcDbBlockBegin
  2
*Model_Space
 70
     0
 10
0.0
 20
0.0
 30
0.0
  3
*Model_Space
  1

  0
ENDBLK
  5
21
330
1F
100
AcDbEntity
  8
0
100
AcDbBlockEnd
  0
BLOCK
  5
1C
330
1B
100
AcDbEntity
 67
     1
  8
0
100
AcDbBlockBegin
  2
*Paper_Space
 70
     0
 10
0.0
 20
0.0
 30
0.0
  3
*Paper_Space
  1

  0
ENDBLK
  5
1D
330
1B
100
AcDbEntity
 67
     1
  8
0
100
AcDbBlockEnd
  0
BLOCK
  5
24
330
23
100
AcDbEntity
  8
0
100
AcDbBlockBegin
  2
*Paper_Space0
 70
     0
 10
0.0
 20
0.0
 30
0.0
  3
*Paper_Space0
  1

  0
ENDBLK
  5
25
330
23
100
AcDbEntity
  8
0
100
AcDbBlockEnd
  0
BLOCK
  5
8F
330
8E
100
AcDbEntity
  8
0
100
AcDbBlockBegin
  2
SW_CENTERMARKSYMBOL_0
 70
     0
 10
0.0
 20
0.0
 30
0.0
  3
SW_CENTERMARKSYMBOL_0
  1

  0
LINE
  5
91
330
8E
100
AcDbEntity
  8
FORMAT
 62
     0
100
AcDbLine
 10
0.0
 20
0.0
 30
0.0
 11
0.0
 21
2.5
 31
0.0
  0
LINE
  5
92
330
8E
100
AcDbEntity
  8
FORMAT
 62
     0
100
AcDbLine
 10
0.0
 20
0.0
 30
0.0
 11
-2.5
 21
0.0
 31
0.0
  0
LINE
  5
93
330
8E
100
AcDbEntity
  8
FORMAT
 62
     0
100
AcDbLine
 10
0.0
 20
0.0
 30
0.0
 11
0.0
 21
-2.5
 31
0.0
  0
LINE
  5
94
330
8E
100
AcDbEntity
  8
FORMAT
 62
     0
100
AcDbLine
 10
0.0
 20
0.0
 30
0.0
 11
2.5
 21
0.0
 31
0.0
  0
LINE
  5
95
330
8E
100
AcDbEntity
  8
FORMAT
 62
     0
100
AcDbLine
 10
0.0
 20
5.0
 30
0.0
 11
0.0
 21
18.5
 31
0.0
  0
LINE
  5
96
330
8E
100
AcDbEntity
  8
FORMAT
 62
     0
100
AcDbLine
 10
-5.0
 20
0.0
 30
0.0
 11
-18.5
 21
0.0
 31
0.0
  0
LINE
  5
97
330
8E
100
AcDbEntity
  8
FORMAT
 62
     0
100
AcDbLine
 10
0.0
 20
-5.0
 30
0.0
 11
0.0
 21
-18.5
 31
0.0
  0
LINE
  5
98
330
8E
100
AcDbEntity
  8
FORMAT
 62
     0
100
AcDbLine
 10
5.0
 20
0.0
 30
0.0
 11
18.5
 21
0.0
 31
0.0
  0
ENDBLK
  5
90
330
8E
100
AcDbEntity
  8
0
100
AcDbBlockEnd
  0
ENDSEC
  0
SECTION
  2
ENTITIES
  0
CIRCLE
  5
83
330
1F
100
AcDbEntity
  8
0
  6
Continuous
 62
     7
370
    25
100
AcDbCircle
 10
139.8323425481
 20
108.7440552885
 30
0.0
 40
13.00000000000001
  0
CIRCLE
  5
84
330
1F
100
AcDbEntity
  8
0
  6
Continuous
 62
     7
370
    25
100
AcDbCircle
 10
139.8323425481
 20
108.7440552885
 30
0.0
 40
16.00000000000003
  0
CIRCLE
  5
85
330
1F
100
AcDbEntity
  8
0
  6
Continuous
 62
     7
370
    25
100
AcDbCircle
 10
139.8323425481
 20
108.7440552885
 30
0.0
 40
11.00000000000003
  0
CIRCLE
  5
86
330
1F
100
AcDbEntity
  8
0
  6
Continuous
 62
     7
370
    25
100
AcDbCircle
 10
139.8323425481
 20
108.7440552885
 30
0.0
 40
18.00000000000001
  0
CIRCLE
  5
87
330
1F
100
AcDbEntity
  8
0
  6
Continuous
 62
     7
370
    25
100
AcDbCircle
 10
139.8323425481
 20
108.7440552885
 30
0.0
 40
18.50000000000001
  0
LINE
  5
88
330
1F
100
AcDbEntity
  8
0
  6
Continuous
 62
     7
370
    25
100
AcDbLine
 10
160.3323425481
 20
96.9083747701
 30
0.0
 11
160.3323425481
 21
120.5797358068
 31
0.0
  0
LINE
  5
89
330
1F
100
AcDbEntity
  8
0
  6
Continuous
 62
     7
370
    25
100
AcDbLine
 10
139.8323425481
 20
85.0726942517
 30
0.0
 11
160.3323425481
 21
96.9083747701
 31
0.0
  0
LINE
  5
8A
330
1F
100
AcDbEntity
  8
0
  6
Continuous
 62
     7
370
    25
100
AcDbLine
 10
119.3323425481
 20
120.5797358068
 30
0.0
 11
119.3323425481
 21
96.9083747701
 31
0.0
  0
LINE
  5
8B
330
1F
100
AcDbEntity
  8
0
  6
Continuous
 62
     7
370
    25
100
AcDbLine
 10
160.3323425481
 20
120.5797358068
 30
0.0
 11
139.8323425481
 21
132.4154163252
 31
0.0
  0
LINE
  5
8C
330
1F
100
AcDbEntity
  8
0
  6
Continuous
 62
     7
370
    25
100
AcDbLine
 10
139.8323425481
 20
132.4154163252
 30
0.0
 11
119.3323425481
 21
120.5797358068
 31
0.0
  0
LINE
  5
8D
330
1F
100
AcDbEntity
  8
0
  6
Continuous
 62
     7
370
    25
100
AcDbLine
 10
119.3323425481
 20
96.9083747701
 30
0.0
 11
139.8323425481
 21
85.0726942517
 31
0.0
  0
INSERT
  5
99
330
1F
100
AcDbEntity
  8
FORMAT
 62
     7
100
AcDbBlockReference
  2
SW_CENTERMARKSYMBOL_0
 10
139.8323425481
 20
108.7440552885
 30
0.0
  0
LINE
  5
9A
330
1F
100
AcDbEntity
  8
0
  6
Continuous
 62
     7
370
    25
100
AcDbLine
 10
158.8323425481
 20
159.4893573429
 30
0.0
 11
158.8323425481
 21
170.4893573429
 31
0.0
  0
LINE
  5
9B
330
1F
100
AcDbEntity
  8
0
  6
Continuous
 62
     7
370
    25
100
AcDbLine
 10
120.8323425481
 20
170.4893573429
 30
0.0
 11
120.8323425481
 21
159.4893573429
 31
0.0
  0
LINE
  5
9C
330
1F
100
AcDbEntity
  8
0
  6
Continuous
 62
     7
370
    25
100
AcDbLine
 10
158.3323425481
 20
178.4893573429
 30
0.0
 11
158.3323425481
 21
196.9893573429
 31
0.0
  0
LINE
  5
9D
330
1F
100
AcDbEntity
  8
0
  6
Continuous
 62
     7
370
    25
100
AcDbLine
 10
121.3323425481
 20
196.9893573429
 30
0.0
 11
121.3323425481
 21
178.4893573429
 31
0.0
  0
ARC
  5
9E
330
1F
100
AcDbEntity
  8
0
  6
Continuous
 62
     7
370
    25
100
AcDbCircle
 10
157.8323425481
 20
196.9893573429
 30
0.0
 40
0.5
100
AcDbArc
 50
0.0
 51
90.0
  0
ARC
  5
9F
330
1F
100
AcDbEntity
  8
0
  6
Continuous
 62
     7
370
    25
100
AcDbCircle
 10
121.8323425481
 20
196.9893573429
 30
0.0
 40
0.5000000000000142
100
AcDbArc
 50
90.0
 51
180.0
  0
LINE
  5
A0
330
1F
100
AcDbEntity
  8
0
  6
Continuous
 62
     7
370
    25
100
AcDbLine
 10
155.8323425481
 20
197.4893573429
 30
0.0
 11
155.8323425481
 21
244.4893573429
 31
0.0
  0
LINE
  5
A1
330
1F
100
AcDbEntity
  8
0
  6
Continuous
 62
     7
370
    25
100
AcDbLine
 10
123.8323425481
 20
244.4893573429
 30
0.0
 11
123.8323425481
 21
197.4893573429
 31
0.0
  0
LINE
  5
A2
330
1F
100
AcDbEntity
  8
0
  6
Continuous
 62
     7
370
    25
100
AcDbLine
 10
139.8323425481
 20
178.4893573429
 30
0.0
 11
139.8323425481
 21
170.4893573429
 31
0.0
  0
LINE
  5
A3
330
1F
100
AcDbEntity
  8
0
  6
Continuous
 62
     7
370
    25
100
AcDbLine
 10
139.8323425481
 20
178.4893573429
 30
0.0
 11
160.3323425481
 21
178.4893573429
 31
0.0
  0
LINE
  5
A4
330
1F
100
AcDbEntity
  8
0
  6
Continuous
 62
     7
370
    25
100
AcDbLine
 10
160.3323425481
 20
178.4893573429
 30
0.0
 11
160.3323425481
 21
170.4893573429
 31
0.0
  0
LINE
  5
A5
330
1F
100
AcDbEntity
  8
0
  6
Continuous
 62
     7
370
    25
100
AcDbLine
 10
139.8323425481
 20
170.4893573429
 30
0.0
 11
160.3323425481
 21
170.4893573429
 31
0.0
  0
LINE
  5
A6
330
1F
100
AcDbEntity
  8
0
  6
Continuous
 62
     7
370
    25
100
AcDbLine
 10
119.3323425481
 20
178.4893573429
 30
0.0
 11
119.3323425481
 21
170.4893573429
 31
0.0
  0
LINE
  5
A7
330
1F
100
AcDbEntity
  8
0
  6
Continuous
 62
     7
370
    25
100
AcDbLine
 10
119.3323425481
 20
178.4893573429
 30
0.0
 11
139.8323425481
 21
178.4893573429
 31
0.0
  0
LINE
  5
A8
330
1F
100
AcDbEntity
  8
0
  6
Continuous
 62
     7
370
    25
100
AcDbLine
 10
119.3323425481
 20
170.4893573429
 30
0.0
 11
139.8323425481
 21
170.4893573429
 31
0.0
  0
LINE
  5
A9
330
1F
100
AcDbEntity
  8
0
  6
Continuous
 62
     7
370
    25
100
AcDbLine
 10
158.8323425481
 20
159.4893573429
 30
0.0
 11
120.8323425481
 21
159.4893573429
 31
0.0
  0
LINE
  5
AA
330
1F
100
AcDbEntity
  8
0
  6
Continuous
 62
     7
370
    25
100
AcDbLine
 10
157.8323425458
 20
197.4893573429
 30
0.0
 11
121.8323425481
 21
197.4893573429
 31
0.0
  0
LINE
  5
AB
330
1F
100
AcDbEntity
  8
0
  6
Continuous
 62
     7
370
    25
100
AcDbLine
 10
155.8323425481
 20
244.4893573429
 30
0.0
 11
123.8323425481
 21
244.4893573429
 31
0.0
  0
LINE
  5
AC
330
1F
100
AcDbEntity
  8
0
  6
Continuous
 62
     1
370
    25
100
AcDbLine
 10
158.3323425481
 20
196.9893573429
 30
0.0
 11
121.3323425481
 21
196.9893573429
 31
0.0
  0
LINE
  5
AD
330
1F
100
AcDbEntity
  8
0
  6
Continuous
 62
     7
370
    25
100
AcDbLine
 10
193.119244041
 20
89.7440552885
 30
0.0
 11
204.119244041
 21
89.7440552885
 31
0.0
  0
LINE
  5
AE
330
1F
100
AcDbEntity
  8
0
  6
Continuous
 62
     7
370
    25
100
AcDbLine
 10
204.119244041
 20
127.7440552885
 30
0.0
 11
193.119244041
 21
127.7440552885
 31
0.0
  0
LINE
  5
AF
330
1F
100
AcDbEntity
  8
0
  6
Continuous
 62
     7
370
    25
100
AcDbLine
 10
212.119244041
 20
90.2440552885
 30
0.0
 11
230.619244041
 21
90.2440552885
 31
0.0
  0
LINE
  5
B0
330
1F
100
AcDbEntity
  8
0
  6
Continuous
 62
     7
370
    25
100
AcDbLine
 10
230.619244041
 20
127.2440552885
 30
0.0
 11
212.119244041
 21
127.2440552885
 31
0.0
  0
ARC
  5
B1
330
1F
100
AcDbEntity
  8
0
  6
Continuous
 62
     7
370
    25
100
AcDbCircle
 10
230.619244041
 20
90.7440552885
 30
0.0
 40
0.5
100
AcDbArc
 50
270.0
 51
0.0
  0
ARC
  5
B2
330
1F
100
AcDbEntity
  8
0
  6
Continuous
 62
     7
370
    25
100
AcDbCircle
 10
230.619244041
 20
126.7440552885
 30
0.0
 40
0.5
100
AcDbArc
 50
0.0
 51
90.0
  0
LINE
  5
B3
330
1F
100
AcDbEntity
  8
0
  6
Continuous
 62
     7
370
    25
100
AcDbLine
 10
231.119244041
 20
92.7440552885
 30
0.0
 11
278.119244041
 21
92.7440552885
 31
0.0
  0
LINE
  5
B4
330
1F
100
AcDbEntity
  8
0
  6
Continuous
 62
     7
370
    25
100
AcDbLine
 10
278.119244041
 20
124.7440552885
 30
0.0
 11
231.119244041
 21
124.7440552885
 31
0.0
  0
LINE
  5
B5
330
1F
100
AcDbEntity
  8
0
  6
Continuous
 62
     7
370
    25
100
AcDbLine
 10
212.119244041
 20
120.5797358068
 30
0.0
 11
204.119244041
 21
120.5797358068
 31
0.0
  0
LINE
  5
B6
330
1F
100
AcDbEntity
  8
0
  6
Continuous
 62
     7
370
    25
100
AcDbLine
 10
212.119244041
 20
120.5797358068
 30
0.0
 11
212.119244041
 21
96.9083747701
 31
0.0
  0
LINE
  5
B7
330
1F
100
AcDbEntity
  8
0
  6
Continuous
 62
     7
370
    25
100
AcDbLine
 10
212.119244041
 20
96.9083747701
 30
0.0
 11
204.119244041
 21
96.9083747701
 31
0.0
  0
LINE
  5
B8
330
1F
100
AcDbEntity
  8
0
  6
Continuous
 62
     7
370
    25
100
AcDbLine
 10
204.119244041
 20
120.5797358068
 30
0.0
 11
204.119244041
 21
96.9083747701
 31
0.0
  0
LINE
  5
B9
330
1F
100
AcDbEntity
  8
0
  6
Continuous
 62
     7
370
    25
100
AcDbLine
 10
212.119244041
 20
96.9083747701
 30
0.0
 11
212.119244041
 21
85.0726942517
 31
0.0
  0
LINE
  5
BA
330
1F
100
AcDbEntity
  8
0
  6
Continuous
 62
     7
370
    25
100
AcDbLine
 10
212.119244041
 20
85.0726942517
 30
0.0
 11
204.119244041
 21
85.0726942517
 31
0.0
  0
LINE
  5
BB
330
1F
100
AcDbEntity
  8
0
  6
Continuous
 62
     7
370
    25
100
AcDbLine
 10
204.119244041
 20
96.9083747701
 30
0.0
 11
204.119244041
 21
85.0726942517
 31
0.0
  0
LINE
  5
BC
330
1F
100
AcDbEntity
  8
0
  6
Continuous
 62
     7
370
    25
100
AcDbLine
 10
212.119244041
 20
132.4154163252
 30
0.0
 11
204.119244041
 21
132.4154163252
 31
0.0
  0
LINE
  5
BD
330
1F
100
AcDbEntity
  8
0
  6
Continuous
 62
     7
370
    25
100
AcDbLine
 10
212.119244041
 20
132.4154163252
 30
0.0
 11
212.119244041
 21
120.5797358068
 31
0.0
  0
LINE
  5
BE
330
1F
100
AcDbEntity
  8
0
  6
Continuous
 62
     7
370
    25
100
AcDbLine
 10
204.119244041
 20
132.4154163252
 30
0.0
 11
204.119244041
 21
120.5797358068
 31
0.0
  0
LINE
  5
BF
330
1F
100
AcDbEntity
  8
0
  6
Continuous
 62
     7
370
    25
100
AcDbLine
 10
193.119244041
 20
108.7440552885
 30
0.0
 11
193.119244041
 21
127.7440552885
 31
0.0
  0
LINE
  5
C0
330
1F
100
AcDbEntity
  8
0
  6
Continuous
 62
     7
370
    25
100
AcDbLine
 10
193.119244041
 20
89.7440552885
 30
0.0
 11
193.119244041
 21
108.7440552885
 31
0.0
  0
LINE
  5
C1
330
1F
100
AcDbEntity
  8
0
  6
Continuous
 62
     7
370
    25
100
AcDbLine
 10
231.119244041
 20
108.7440552885
 30
0.0
 11
231.119244041
 21
126.7440552885
 31
0.0
  0
LINE
  5
C2
330
1F
100
AcDbEntity
  8
0
  6
Continuous
 62
     7
370
    25
100
AcDbLine
 10
231.119244041
 20
90.7440552885
 30
0.0
 11
231.119244041
 21
108.7440552885
 31
0.0
  0
LINE
  5
C3
330
1F
100
AcDbEntity
  8
0
  6
Continuous
 62
     7
370
    25
100
AcDbLine
 10
278.119244041
 20
108.7440552885
 30
0.0
 11
278.119244041
 21
124.7440552885
 31
0.0
  0
LINE
  5
C4
330
1F
100
AcDbEntity
  8
0
  6
Continuous
 62
     7
370
    25
100
AcDbLine
 10
278.119244041
 20
92.7440552885
 30
0.0
 11
278.119244041
 21
108.7440552885
 31
0.0
  0
LINE
  5
C5
330
1F
100
AcDbEntity
  8
0
  6
Continuous
 62
     1
370
    25
100
AcDbLine
 10
230.619244041
 20
108.7440552885
 30
0.0
 11
230.619244041
 21
127.2440552885
 31
0.0
  0
LINE
  5
C6
330
1F
100
AcDbEntity
  8
0
  6
Continuous
 62
     1
370
    25
100
AcDbLine
 10
230.619244041
 20
90.2440552885
 30
0.0
 11
230.619244041
 21
108.7440552885
 31
0.0
  0
LINE
  5
C7
330
1F
100
AcDbEntity
  8
0
  6
Continuous
 62
     7
370
    25
100
AcDbLine
 10
86.6317308965
 20
127.7440552885
 30
0.0
 11
75.6317308965
 21
127.7440552885
 31
0.0
  0
LINE
  5
C8
330
1F
100
AcDbEntity
  8
0
  6
Continuous
 62
     7
370
    25
100
AcDbLine
 10
75.6317308965
 20
89.7440552885
 30
0.0
 11
86.6317308965
 21
89.7440552885
 31
0.0
  0
LINE
  5
C9
330
1F
100
AcDbEntity
  8
0
  6
Continuous
 62
     7
370
    25
100
AcDbLine
 10
67.6317308965
 20
127.2440552885
 30
0.0
 11
49.1317308965
 21
127.2440552885
 31
0.0
  0
LINE
  5
CA
330
1F
100
AcDbEntity
  8
0
  6
Continuous
 62
     7
370
    25
100
AcDbLine
 10
49.1317308965
 20
90.2440552885
 30
0.0
 11
67.6317308965
 21
90.2440552885
 31
0.0
  0
ARC
  5
CB
330
1F
100
AcDbEntity
  8
0
  6
Continuous
 62
     7
370
    25
100
AcDbCircle
 10
49.1317308965
 20
126.7440552885
 30
0.0
 40
0.5
100
AcDbArc
 50
90.0
 51
180.0
  0
ARC
  5
CC
330
1F
100
AcDbEntity
  8
0
  6
Continuous
 62
     7
370
    25
100
AcDbCircle
 10
49.1317308965
 20
90.7440552885
 30
0.0
 40
0.5
100
AcDbArc
 50
180.0
 51
270.0
  0
LINE
  5
CD
330
1F
100
AcDbEntity
  8
0
  6
Continuous
 62
     7
370
    25
100
AcDbLine
 10
48.6317308965
 20
124.7440552885
 30
0.0
 11
1.6317308965
 21
124.7440552885
 31
0.0
  0
LINE
  5
CE
330
1F
100
AcDbEntity
  8
0
  6
Continuous
 62
     7
370
    25
100
AcDbLine
 10
1.6317308965
 20
92.7440552885
 30
0.0
 11
48.6317308965
 21
92.7440552885
 31
0.0
  0
LINE
  5
CF
330
1F
100
AcDbEntity
  8
0
  6
Continuous
 62
     7
370
    25
100
AcDbLine
 10
67.6317308965
 20
96.9083747701
 30
0.0
 11
75.6317308965
 21
96.9083747701
 31
0.0
  0
LINE
  5
D0
330
1F
100
AcDbEntity
  8
0
  6
Continuous
 62
     7
370
    25
100
AcDbLine
 10
67.6317308965
 20
96.9083747701
 30
0.0
 11
67.6317308965
 21
120.5797358068
 31
0.0
  0
LINE
  5
D1
330
1F
100
AcDbEntity
  8
0
  6
Continuous
 62
     7
370
    25
100
AcDbLine
 10
67.6317308965
 20
120.5797358068
 30
0.0
 11
75.6317308965
 21
120.5797358068
 31
0.0
  0
LINE
  5
D2
330
1F
100
AcDbEntity
  8
0
  6
Continuous
 62
     7
370
    25
100
AcDbLine
 10
75.6317308965
 20
96.9083747701
 30
0.0
 11
75.6317308965
 21
120.5797358068
 31
0.0
  0
LINE
  5
D3
330
1F
100
AcDbEntity
  8
0
  6
Continuous
 62
     7
370
    25
100
AcDbLine
 10
67.6317308965
 20
120.5797358068
 30
0.0
 11
67.6317308965
 21
132.4154163252
 31
0.0
  0
LINE
  5
D4
330
1F
100
AcDbEntity
  8
0
  6
Continuous
 62
     7
370
    25
100
AcDbLine
 10
67.6317308965
 20
132.4154163252
 30
0.0
 11
75.6317308965
 21
132.4154163252
 31
0.0
  0
LINE
  5
D5
330
1F
100
AcDbEntity
  8
0
  6
Continuous
 62
     7
370
    25
100
AcDbLine
 10
75.6317308965
 20
120.5797358068
 30
0.0
 11
75.6317308965
 21
132.4154163252
 31
0.0
  0
LINE
  5
D6
330
1F
100
AcDbEntity
  8
0
  6
Continuous
 62
     7
370
    25
100
AcDbLine
 10
67.6317308965
 20
85.0726942517
 30
0.0
 11
75.6317308965
 21
85.0726942517
 31
0.0
  0
LINE
  5
D7
330
1F
100
AcDbEntity
  8
0
  6
Continuous
 62
     7
370
    25
100
AcDbLine
 10
67.6317308965
 20
85.0726942517
 30
0.0
 11
67.6317308965
 21
96.9083747701
 31
0.0
  0
LINE
  5
D8
330
1F
100
AcDbEntity
  8
0
  6
Continuous
 62
     7
370
    25
100
AcDbLine
 10
75.6317308965
 20
85.0726942517
 30
0.0
 11
75.6317308965
 21
96.9083747701
 31
0.0
  0
LINE
  5
D9
330
1F
100
AcDbEntity
  8
0
  6
Continuous
 62
     7
370
    25
100
AcDbLine
 10
86.6317308965
 20
127.7440552885
 30
0.0
 11
86.6317308965
 21
89.7440552885
 31
0.0
  0
LINE
  5
DA
330
1F
100
AcDbEntity
  8
0
  6
Continuous
 62
     7
370
    25
100
AcDbLine
 10
48.6317308965
 20
126.7440552885
 30
0.0
 11
48.6317308965
 21
90.7440552885
 31
0.0
  0
LINE
  5
DB
330
1F
100
AcDbEntity
  8
0
  6
Continuous
 62
     7
370
    25
100
AcDbLine
 10
1.6317308965
 20
124.7440552885
 30
0.0
 11
1.6317308965
 21
92.7440552885
 31
0.0
  0
LINE
  5
DC
330
1F
100
AcDbEntity
  8
0
  6
Continuous
 62
     1
370
    25
100
AcDbLine
 10
49.1317308965
 20
127.2440552885
 30
0.0
 11
49.1317308965
 21
90.2440552885
 31
0.0
  0
LINE
  5
DD
330
1F
100
AcDbEntity
  8
0
  6
Continuous
 62
     7
370
    25
100
AcDbLine
 10
242.6501508583
 20
28.5170518074
 30
0.0
 11
209.4161321425
 21
47.7026424353
 31
0.0
  0
LINE
  5
DE
330
1F
100
AcDbEntity
  8
0
  6
Continuous
 62
     7
370
    25
100
AcDbLine
 10
193.4174324203
 20
19.9890788391
 30
0.0
 11
226.6514511361
 21
0.8034882113
 31
0.0
  0
SPLINE
  5
DF
330
1F
100
AcDbEntity
  8
0
  6
Continuous
 62
     7
370
    25
100
AcDbSpline
210
0.0
220
0.0
230
1.0
 70
     8
 71
     3
 72
    15
 73
    11
 74
     0
 42
0.00000001
 43
0.00000001
 40
0.0
 40
0.0
 40
0.0
 40
0.0
 40
0.0909908603847232
 40
0.2312896566346718
 40
0.3720158888419446
 40
0.5132826297214532
 40
0.6551324675750262
 40
0.797544520721982
 40
0.9404513463671248
 40
1.0
 40
1.0
 40
1.0
 40
1.0
 10
243.1961998643634
 20
30.9606607935908
 30
0.0
 10
243.06267273324
 20
31.00911901100177
 30
0.0
 10
242.7232601353335
 20
31.13229494777962
 30
0.0
 10
242.1473035197137
 20
31.26344854368627
 30
0.0
 10
241.4745949453157
 20
31.36161964524133
 30
0.0
 10
240.7778143019197
 20
31.39755759552817
 30
0.0
 10
240.0607954709555
 20
31.37513069665851
 30
0.0
 10
239.3248857285862
 20
31.28890575301217
 30
0.0
 10
238.7220042657069
 20
31.18199303787534
 30
0.0
 10
238.3618335017218
 20
31.0829368928522
 30
0.0
 10
238.2558957214764
 20
31.05380130170284
 30
0.0
  0
SPLINE
  5
E0
330
1F
100
AcDbEntity
  8
0
  6
Continuous
 62
     7
370
    25
100
AcDbSpline
210
0.0
220
0.0
230
1.0
 70
     8
 71
     3
 72
    15
 73
    11
 74
     0
 42
0.00000001
 43
0.00000001
 40
0.0
 40
0.0
 40
0.0
 40
0.0
 40
0.0069934129279747
 40
0.1501177657472158
 40
0.2929854086370399
 40
0.4354903544254234
 40
0.5775260195594185
 40
0.7190031893626624
 40
0.8598720519021064
 40
0.9999999999999999
 40
0.9999999999999999
 40
0.9999999999999999
 40
0.9999999999999999
 10
222.25060430842
 20
3.344043007667594
 30
0.0
 10
222.2536750884873
 20
3.331325414168791
 30
0.0
 10
222.3195912080645
 20
3.058334709718145
 30
0.0
 10
222.4913805342148
 20
2.56040971027943
 30
0.0
 10
222.7687600271264
 20
1.857071059555951
 30
0.0
 10
223.0959395355182
 20
1.20297817399273
 30
0.0
 10
223.4645922523195
 20
0.5950646970560997
 30
0.0
 10
223.8757815073668
 20
0.0385206447858638
 30
0.0
 10
224.3235541039517
 20
-0.46972439112241
 30
0.0
 10
224.6543160560383
 20
-0.7635164334147058
 30
0.0
 10
224.8192609660877
 20
-0.9100251285153114
 30
0.0
  0
LINE
  5
E1
330
1F
100
AcDbEntity
  8
0
  6
Continuous
 62
     7
370
    25
100
AcDbLine
 10
257.3350781166
 20
22.9262969011
 30
0.0
 11
244.2536026647
 21
30.4780719354
 31
0.0
  0
LINE
  5
E2
330
1F
100
AcDbEntity
  8
0
  6
Continuous
 62
     7
370
    25
100
AcDbLine
 10
225.7551061109
 20
-1.5657359726
 30
0.0
 11
238.8365815629
 21
-9.117511007
 31
0.0
  0
LINE
  5
E3
330
1F
100
AcDbEntity
  8
0
  6
Continuous
 62
     7
370
    25
100
AcDbLine
 10
271.0200866423
 20
15.60344427
 30
0.0
 11
268.2383731036
 21
17.2092933144
 31
0.0
  0
LINE
  5
E4
330
1F
100
AcDbEntity
  8
0
  6
Continuous
 62
     7
370
    25
100
AcDbLine
 10
248.3927559092
 20
-15.2115076623
 30
0.0
 11
252.0216307223
 21
-17.3064125005
 31
0.0
  0
LWPOLYLINE
  5
E5
330
1F
100
AcDbEntity
  8
0
  6
Continuous
 62
     7
370
    25
100
AcDbPolyline
 90
       94
 70
   128
 43
0.0
 10
190.1030737825
 20
27.3145957426
 10
190.1288847109
 20
28.2114874906
 10
190.206199727
 20
29.134087591
 10
190.3346660601
 20
30.0781864311
 10
190.5136975476
 20
31.0394763044
 10
190.7424773101
 20
32.0135710658
 10
191.0199614779
 20
32.9960261443
 10
191.3448839544
 20
33.9823588226
 10
191.7157621929
 20
34.968068691
 10
192.130903961
 20
35.9486581814
 10
192.5884150621
 20
36.919653089
 10
193.0862079779
 20
37.8766229865
 10
193.6220113936
 20
38.81520144
 10
194.193380561
 20
39.7311059312
 10
194.7977084537
 20
40.6201573979
 10
195.4322376621
 20
41.4782993023
 10
196.0940729751
 20
42.3016161396
 10
196.7801945897
 20
43.086351304
 10
197.4874718906
 20
43.8289242289
 10
198.2126777335
 20
44.5259467243
 10
198.9525031706
 20
45.1742384365
 10
199.7035725481
 20
45.770841359
 10
200.4624589086
 20
46.3130333297
 10
201.2256996279
 20
46.7983404508
 10
201.9898122134
 20
47.2245483773
 10
202.7513101948
 20
47.5897124202
 10
203.5067190314
 20
47.8921664197
 10
204.2525919659
 20
48.1305303476
 10
204.9855257513
 20
48.3037166039
 10
205.7021761788
 20
48.4109349795
 10
206.3992733368
 20
48.4516962615
 10
207.0736365309
 20
48.4258144656
 10
207.7221887966
 20
48.3334076844
 10
208.3419709385
 20
48.1748975489
 10
208.9301550329
 20
47.9510073045
 10
209.4840573307
 20
47.662758511
 10
210.0011505028
 20
47.3114663815
 10
210.4790751716
 20
46.8987337815
 10
210.9156506765
 20
46.4264439152
 10
211.3088850236
 20
45.8967517328
 10
211.6569839747
 20
45.3120740984
 10
211.9583592341
 20
44.6750787618
 10
212.2116356958
 20
43.9886721868
 10
212.4156577172
 20
43.2559862889
 10
212.5694943927
 20
42.4803641461
 10
212.6724438009
 20
41.6653447441
 10
212.7240362071
 20
40.8146468297
 10
212.7240362071
 20
39.9321519422
 10
212.6724438009
 20
39.0218867034
 10
212.5694943927
 20
38.0880044449
 10
212.4156577172
 20
37.1347662571
 10
212.2116356958
 20
36.1665215474
 10
211.9583592341
 20
35.1876881941
 10
211.6569839747
 20
34.2027323895
 10
211.3088850236
 20
33.216148261
 10
210.9156506765
 20
32.2324373656
 10
210.4790751716
 20
31.2560881505
 10
210.0011505028
 20
30.2915554733
 10
209.4840573307
 20
29.3432402753
 10
208.9301550329
 20
28.4154695014
 10
208.3419709385
 20
27.5124763566
 10
207.7221887966
 20
26.6383809917
 10
207.0736365309
 20
25.7971717034
 10
206.3992733368
 20
24.9926867365
 10
205.7021761788
 20
24.2285967717
 10
204.9855257513
 20
23.508388176
 10
204.2525919659
 20
22.8353470962
 10
203.5067190314
 20
22.2125444642
 10
202.7513101948
 20
21.6428219858
 10
201.9898122134
 20
21.1287791738
 10
201.2256996279
 20
20.6727614878
 10
200.4624589086
 20
20.2768496318
 10
199.7035725481
 20
19.9428500608
 10
198.9525031706
 20
19.6722867383
 10
198.2126777335
 20
19.4663941826
 10
197.4874718906
 20
19.3261118343
 10
196.7801945897
 20
19.2520797695
 10
196.0940729751
 20
19.2446357796
 10
195.4322376621
 20
19.3038138298
 10
194.7977084537
 20
19.4293439042
 10
194.193380561
 20
19.6206532378
 10
193.6220113936
 20
19.8768689302
 10
193.0862079779
 20
20.1968219277
 10
192.5884150621
 20
20.5790523584
 10
192.130903961
 20
21.0218161924
 10
191.7157621929
 20
21.5230931998
 10
191.3448839544
 20
22.0805961687
 10
191.0199614779
 20
22.6917813409
 10
190.7424773101
 20
23.3538600186
 10
190.5136975476
 20
24.0638112887
 10
190.3346660601
 20
24.8183958063
 10
190.206199727
 20
25.6141705754
 10
190.1288847109
 20
26.4475046583
 10
190.1030737825
 20
27.3145957426
  0
LWPOLYLINE
  5
E6
330
1F
100
AcDbEntity
  8
0
  6
Continuous
 62
     7
370
    25
100
AcDbPolyline
 90
       49
 70
   128
 43
0.0
 10
242.6501508583
 20
28.5170518074
 10
242.7180760465
 20
28.4771678832
 10
243.2351692186
 20
28.1258757537
 10
243.7130938874
 20
27.7131431537
 10
244.1496693923
 20
27.2408532874
 10
244.5429037393
 20
26.711161105
 10
244.8910026904
 20
26.1264834706
 10
245.1923779499
 20
25.489488134
 10
245.4456544116
 20
24.8030815589
 10
245.649676433
 20
24.0703956611
 10
245.8035131085
 20
23.2947735182
 10
245.9064625166
 20
22.4797541163
 10
245.9580549229
 20
21.6290562018
 10
245.9580549229
 20
20.7465613143
 10
245.9064625166
 20
19.8362960756
 10
245.8035131085
 20
18.902413817
 10
245.649676433
 20
17.9491756293
 10
245.4456544116
 20
16.9809309195
 10
245.1923779499
 20
16.0020975663
 10
244.8910026904
 20
15.0171417617
 10
244.5429037393
 20
14.0305576332
 10
244.1496693923
 20
13.0468467378
 10
243.7130938874
 20
12.0704975227
 10
243.2351692186
 20
11.1059648455
 10
242.7180760465
 20
10.1576496475
 10
242.1641737487
 20
9.2298788735
 10
241.5759896542
 20
8.3268857288
 10
240.9562075123
 20
7.4527903639
 10
240.3076552467
 20
6.6115810755
 10
239.6332920526
 20
5.8070961087
 10
238.9361948946
 20
5.0430061438
 10
238.2195444671
 20
4.3227975482
 10
237.4866106817
 20
3.6497564683
 10
236.7407377472
 20
3.0269538364
 10
235.9853289105
 20
2.457231358
 10
235.2238309292
 20
1.943188546
 10
234.4597183436
 20
1.4871708599
 10
233.6964776244
 20
1.0912590039
 10
232.9375912639
 20
0.757259433
 10
232.1865218864
 20
0.4866961104
 10
231.4466964493
 20
0.2808035548
 10
230.7214906064
 20
0.1405212065
 10
230.0142133055
 20
0.0664891417
 10
229.3280916908
 20
0.0590451518
 10
228.6662563779
 20
0.1182232019
 10
228.0317271695
 20
0.2437532763
 10
227.4273992768
 20
0.43506261
 10
226.8560301093
 20
0.6912783023
 10
226.6514511361
 20
0.8034882113
  0
LWPOLYLINE
  5
E7
330
1F
100
AcDbEntity
  8
0
  6
Continuous
 62
     7
370
    25
100
AcDbPolyline
 90
       85
 70
   128
 43
0.0
 10
192.224394126
 20
28.5392079103
 10
192.2500979077
 20
29.3473086144
 10
192.3270655067
 20
30.1805670462
 10
192.4548664891
 20
31.0343232865
 10
192.6327861399
 20
31.9038027841
 10
192.8598294602
 20
32.7841430571
 10
193.1347267317
 20
33.6704208854
 10
193.4559406174
 20
34.5576798439
 10
193.8216747589
 20
35.4409580208
 10
194.2298838225
 20
36.315315766
 10
194.6782849375
 20
37.1758633164
 10
195.1643704631
 20
38.0177881411
 10
195.6854220118
 20
38.8363818549
 10
196.238525652
 20
39.6270665497
 10
196.8205882037
 20
40.3854203959
 10
197.4283545371
 20
41.1072023713
 10
198.0584257764
 20
41.7883759783
 10
198.7072783074
 20
42.4251318176
 10
199.3712834838
 20
43.0139088925
 10
200.0467279192
 20
43.5514145226
 10
200.7298342543
 20
44.0346427584
 10
201.4167822814
 20
44.4608911917
 10
202.1037303086
 20
44.8277760683
 10
202.7868366437
 20
45.133245619
 10
203.4622810791
 20
45.3755915344
 10
204.1262862554
 20
45.5534585177
 10
204.7751387865
 20
45.6658518646
 10
205.4052100257
 20
45.712143026
 10
206.0129763591
 20
45.6920731228
 10
206.5950389109
 20
45.6057543941
 10
207.1481425511
 20
45.4536695693
 10
207.6691940998
 20
45.2366691683
 10
208.1552796254
 20
44.9559667455
 10
208.6036807404
 20
44.6131321027
 10
209.011889804
 20
44.2100825103
 10
209.3776239455
 20
43.749071985
 10
209.6988378311
 20
43.2326786847
 10
209.9737351027
 20
42.6637904903
 10
210.200778423
 20
42.0455888552
 10
210.3786980738
 20
41.3815310138
 10
210.5064990561
 20
40.6753306469
 10
210.5834666552
 20
39.9309371135
 10
210.6091704369
 20
39.152513364
 10
210.5834666552
 20
38.34441266
 10
210.5064990561
 20
37.5111542282
 10
210.3786980738
 20
36.6573979879
 10
210.200778423
 20
35.7879184902
 10
209.9737351027
 20
34.9075782173
 10
209.6988378311
 20
34.021300389
 10
209.3776239455
 20
33.1340414304
 10
209.011889804
 20
32.2507632536
 10
208.6036807404
 20
31.3764055084
 10
208.1552796254
 20
30.515857958
 10
207.6691940998
 20
29.6739331333
 10
207.1481425511
 20
28.8553394195
 10
206.5950389109
 20
28.0646547247
 10
206.0129763591
 20
27.3063008785
 10
205.4052100257
 20
26.5845189031
 10
204.7751387865
 20
25.9033452961
 10
204.1262862554
 20
25.2665894567
 10
203.4622810791
 20
24.6778123819
 10
202.7868366437
 20
24.1403067518
 10
202.1037303086
 20
23.6570785159
 10
201.4167822814
 20
23.2308300827
 10
200.7298342543
 20
22.8639452061
 10
200.0467279192
 20
22.5584756553
 10
199.3712834838
 20
22.31612974
 10
198.7072783074
 20
22.1382627567
 10
198.0584257764
 20
22.0258694098
 10
197.4283545371
 20
21.9795782484
 10
196.8205882037
 20
21.9996481516
 10
196.238525652
 20
22.0859668803
 10
195.6854220118
 20
22.2380517051
 10
195.1643704631
 20
22.4550521061
 10
194.6782849375
 20
22.7357545288
 10
194.2298838225
 20
23.0785891717
 10
193.8216747589
 20
23.4816387641
 10
193.4559406174
 20
23.9426492894
 10
193.1347267317
 20
24.4590425897
 10
192.8598294602
 20
25.0279307841
 10
192.6327861399
 20
25.6461324192
 10
192.4548664891
 20
26.3101902606
 10
192.3270655067
 20
27.0163906274
 10
192.2500979077
 20
27.7607841609
 10
192.224394126
 20
28.5392079103
  0
ARC
  5
E8
330
1F
100
AcDbEntity
  8
0
  6
Continuous
 62
     7
370
    25
100
AcDbCircle
 10
241.1452185561
 20
25.0937403987
 30
0.0
 40
6.216878234150059
100
AcDbArc
 50
50.4708693101
 51
70.1824039734
  0
ARC
  5
E9
330
1F
100
AcDbEntity
  8
0
  6
Continuous
 62
     7
370
    25
100
AcDbCircle
 10
228.8640895111
 20
3.8197483509
 30
0.0
 40
6.218161998463362
100
AcDbArc
 50
229.9928315828
 51
250.0869334758
  0
LWPOLYLINE
  5
EA
330
1F
100
AcDbEntity
  8
0
  6
Continuous
 62
     7
370
    25
100
AcDbPolyline
 90
       52
 70
   128
 43
0.0
 10
257.3350781166
 20
22.9262969011
 10
257.6218150446
 20
22.7501720469
 10
258.1652799105
 20
22.3520656064
 10
258.6689657919
 20
21.8929942593
 10
259.1308848706
 20
21.3747697504
 10
259.5492141631
 20
20.7994372752
 10
259.9223027148
 20
20.169267408
 10
260.2486781157
 20
19.4867471415
 10
260.5270523111
 20
18.7545700713
 10
260.7563266852
 20
17.9756257659
 10
260.9355963969
 20
17.1529883624
 10
261.0641539505
 20
16.289904435
 10
261.1414919881
 20
15.3897801816
 10
261.1673052917
 20
14.4561679814
 10
261.1414919881
 20
13.4927523752
 10
261.0641539505
 20
12.5033355243
 10
260.9355963969
 20
11.4918222049
 10
260.7563266852
 20
10.462204398
 10
260.5270523111
 20
9.4185455348
 10
260.2486781157
 20
8.3649644599
 10
259.9223027148
 20
7.3056191765
 10
259.5492141631
 20
6.2446904365
 10
259.1308848706
 20
5.1863652409
 10
258.6689657919
 20
4.1348203158
 10
258.1652799105
 20
3.0942056285
 10
257.6218150446
 20
2.0686280099
 10
257.0407160017
 20
1.0621349463
 10
256.4242761141
 20
0.0786986059
 10
255.7749281886
 20
-0.8777998373
 10
255.0952349048
 20
-1.803585521
 10
254.3878787014
 20
-2.6950047919
 10
253.6556511903
 20
-3.5485396254
 10
252.901442139
 20
-4.3608215097
 10
252.1282280659
 20
-5.128644739
 10
251.3390604938
 20
-5.848979066
 10
250.5370539067
 20
-6.51898166
 10
249.7253734579
 20
-7.1360083271
 10
248.9072224796
 20
-7.6976239448
 10
248.0858298397
 20
-8.2016120728
 10
247.2644371999
 20
-8.6459837004
 10
246.4462862216
 20
-9.0289850955
 10
245.6346057728
 20
-9.3491047268
 10
244.8325991857
 20
-9.6050792283
 10
244.0434316136
 20
-9.7958983856
 10
243.2702175405
 20
-9.9208091227
 10
242.5160084892
 20
-9.9793184738
 10
241.7837809781
 20
-9.9711955295
 10
241.0764247747
 20
-9.8964723471
 10
240.3967314909
 20
-9.755443825
 10
239.7473835654
 20
-9.5486665383
 10
239.1309436778
 20
-9.2769565425
 10
238.8365815629
 20
-9.117511007
  0
LINE
  5
EB
330
1F
100
AcDbEntity
  8
0
  6
Continuous
 62
     7
370
    25
100
AcDbLine
 10
233.5901408254
 20
-6.0888052371
 30
0.0
 11
233.5901408254
 21
-11.1281063788
 31
0.0
  0
LINE
  5
EC
330
1F
100
AcDbEntity
  8
0
  6
Continuous
 62
     7
370
    25
100
AcDbLine
 10
262.5815188541
 20
24.9368922729
 30
0.0
 11
252.2523864191
 21
25.8604723624
 31
0.0
  0
LINE
  5
ED
330
1F
100
AcDbEntity
  8
0
  6
Continuous
 62
     7
370
    25
100
AcDbLine
 10
262.5815188541
 20
5.6082599135
 30
0.0
 11
262.5815188541
 21
24.9368922729
 31
0.0
  0
LINE
  5
EE
330
1F
100
AcDbEntity
  8
0
  6
Continuous
 62
     7
370
    25
100
AcDbLine
 10
248.0858298397
 20
-12.4242394124
 30
0.0
 11
262.5815188541
 21
5.6082599135
 31
0.0
  0
LINE
  5
EF
330
1F
100
AcDbEntity
  8
0
  6
Continuous
 62
     7
370
    25
100
AcDbLine
 10
233.5901408254
 20
-11.1281063788
 30
0.0
 11
248.0858298397
 21
-12.4242394124
 31
0.0
  0
LINE
  5
F0
330
1F
100
AcDbEntity
  8
0
  6
Continuous
 62
     7
370
    25
100
AcDbLine
 10
248.0858298397
 20
-12.4242394124
 30
0.0
 11
253.7426840892
 21
-15.6898718597
 31
0.0
  0
LINE
  5
F1
330
1F
100
AcDbEntity
  8
0
  6
Continuous
 62
     7
370
    25
100
AcDbLine
 10
262.5815188541
 20
5.6082599135
 30
0.0
 11
268.2383731036
 21
2.3426274662
 31
0.0
  0
LINE
  5
F2
330
1F
100
AcDbEntity
  8
0
  6
Continuous
 62
     7
370
    25
100
AcDbLine
 10
253.7426840892
 20
-15.6898718597
 30
0.0
 11
268.2383731036
 21
2.3426274662
 31
0.0
  0
LINE
  5
F3
330
1F
100
AcDbEntity
  8
0
  6
Continuous
 62
     7
370
    25
100
AcDbLine
 10
262.5815188541
 20
24.9368922729
 30
0.0
 11
268.2383731036
 21
21.6712598256
 31
0.0
  0
LINE
  5
F4
330
1F
100
AcDbEntity
  8
0
  6
Continuous
 62
     7
370
    25
100
AcDbLine
 10
268.2383731036
 20
2.3426274662
 30
0.0
 11
268.2383731036
 21
21.6712598256
 31
0.0
  0
LWPOLYLINE
  5
F5
330
1F
100
AcDbEntity
  8
0
  6
Continuous
 62
     7
370
    25
100
AcDbPolyline
 90
       53
 70
   128
 43
0.0
 10
271.0200866423
 20
15.60344427
 10
271.4494648001
 20
15.3320779634
 10
271.9878286717
 20
14.917237638
 10
272.486487741
 20
14.4425811499
 10
272.9435504232
 20
13.9099090336
 10
273.3572829232
 20
13.3212418969
 10
273.7261158116
 20
12.678812756
 10
274.0486499792
 20
11.9850585645
 10
274.3236619433
 20
11.2426109698
 10
274.5501084893
 20
10.4542863299
 10
274.727130628
 20
9.6230750302
 10
274.8540568537
 20
8.7521301398
 10
274.9304056917
 20
7.8447554511
 10
274.9558875248
 20
6.904392947
 10
274.9304056917
 20
5.9346097447
 10
274.8540568537
 20
4.9390845639
 10
274.727130628
 20
3.9215937727
 10
274.5501084893
 20
2.8859970621
 10
274.3236619433
 20
1.8362228053
 10
274.0486499792
 20
0.7762531555
 10
273.7261158116
 20
-0.2898910593
 10
273.3572829232
 20
-1.3581655889
 10
272.9435504232
 20
-2.4245181022
 10
272.486487741
 20
-3.4849035587
 10
271.9878286717
 20
-4.5352995533
 10
271.4494648001
 20
-5.5717215741
 10
270.8734383246
 20
-6.5902381174
 10
270.261934311
 20
-7.5869856011
 10
269.6172724036
 20
-8.5581830206
 10
268.9418980256
 20
-9.5001462914
 10
268.2383731036
 20
-10.4093022242
 10
267.5093663484
 20
-11.2822020791
 10
266.7576431324
 20
-12.115534648
 10
265.9860549993
 20
-12.9061388149
 10
265.197528847
 20
-13.6510155476
 10
264.3950558255
 20
-14.3473392733
 10
263.5816799898
 20
-14.9924685978
 10
262.7604867529
 20
-15.5839563245
 10
261.9345911822
 20
-16.1195587378
 10
261.1071261824
 20
-16.5972441144
 10
260.2812306116
 20
-17.01520043
 10
259.4600373748
 20
-17.3718422331
 10
258.646661539
 20
-17.6658166592
 10
257.8441885175
 20
-17.8960085626
 10
257.0556623653
 20
-18.0615447466
 10
256.2840742322
 20
-18.1617972757
 10
255.5323510162
 20
-18.1963858578
 10
254.803344261
 20
-18.1651792865
 10
254.099819339
 20
-18.068295939
 10
253.424444961
 20
-17.9061033271
 10
252.7797830536
 20
-17.6792167029
 10
252.16827904
 20
-17.388496725
 10
252.0216307223
 20
-17.3064125005
  0
LINE
  5
F6
330
1F
100
AcDbEntity
  8
0
  6
Continuous
 62
     7
370
    25
100
AcDbLine
 10
233.5901408254
 20
-11.1281063788
 30
0.0
 11
239.2469950749
 21
-14.3937388261
 31
0.0
  0
LINE
  5
F7
330
1F
100
AcDbEntity
  8
0
  6
Continuous
 62
     7
370
    25
100
AcDbLine
 10
239.2469950749
 20
-14.3937388261
 30
0.0
 11
253.7426840892
 21
-15.6898718597
 31
0.0
  0
LWPOLYLINE
  5
F8
330
1F
100
AcDbEntity
  8
0
  6
Continuous
 62
     1
370
    25
100
AcDbPolyline
 90
       67
 70
   128
 43
0.0
 10
238.526710186
 20
30.8974634391
 10
238.8136965431
 20
30.9528296981
 10
239.5681716458
 20
31.0555262954
 10
240.3028462325
 20
31.0922049821
 10
241.0147620279
 20
31.0627180663
 10
241.7010523983
 20
30.9671842813
 10
242.3589538947
 20
30.805988308
 10
242.9858173799
 20
30.5797792256
 10
243.5791186959
 20
30.2894678983
 10
244.1364688278
 20
29.9362233073
 10
244.6556235232
 20
29.5214678439
 10
245.1344923294
 20
29.046871582
 10
245.5711470108
 20
28.5143455533
 10
245.9638293131
 20
27.926034052
 10
246.3109580432
 20
27.284306001
 10
246.6111354362
 20
26.5917454126
 10
246.8631527838
 20
25.851140984
 10
247.065995301
 20
25.0654748677
 10
247.2188462126
 20
24.2379106638
 10
247.321090042
 20
23.3717806814
 10
247.3723150893
 20
22.4705725202
 10
247.3723150893
 20
21.5379150274
 10
247.321090042
 20
20.5775636855
 10
247.2188462126
 20
19.5933854905
 10
247.065995301
 20
18.5893433805
 10
246.8631527838
 20
17.5694802789
 10
246.6111354362
 20
16.5379028142
 10
246.3109580432
 20
15.4987647849
 10
245.9638293131
 20
14.4562504332
 10
245.5711470108
 20
13.4145575962
 10
245.1344923294
 20
12.3778808035
 10
244.6556235232
 20
11.3503943865
 10
244.1364688278
 20
10.3362356705
 10
243.5791186959
 20
9.3394883146
 10
242.9858173799
 20
8.3641658687
 10
242.3589538947
 20
7.4141956119
 10
241.7010523983
 20
6.4934027393
 10
241.0147620279
 20
5.6054949588
 10
240.3028462325
 20
4.7540475616
 10
239.5681716458
 20
3.9424890258
 10
238.8136965431
 20
3.1740872113
 10
238.0424589292
 20
2.4519362009
 10
237.257564306
 20
1.7789438419
 10
236.4621731669
 20
1.157820037
 10
235.6594882714
 20
0.5910658325
 10
234.8527417483
 20
0.0809633476
 10
234.0451820811
 20
-0.370433415
 10
233.2400610274
 20
-0.7613068399
 10
232.4406205258
 20
-1.0900830178
 10
231.6500796408
 20
-1.3554380831
 10
230.8716216016
 20
-1.5563035445
 10
230.108380984
 20
-1.6918705877
 10
229.3634310886
 20
-1.7615933322
 10
228.6397715657
 20
-1.765191029
 10
227.9403163367
 20
-1.7026491914
 10
227.267881861
 20
-1.5742196534
 10
226.625175795
 20
-1.3804195554
 10
226.014786089
 20
-1.122029262
 10
225.4391705671
 20
-0.8000892197
 10
224.9006470296
 20
-0.4158957674
 10
224.401383921
 20
0.0290040835
 10
223.9433915975
 20
0.5328188782
 10
223.5285142325
 20
1.0935199324
 10
223.1584223908
 20
1.7088495009
 10
222.8346063015
 20
2.3763298687
 10
222.5583698579
 20
3.0932733278
 10
222.5280104638
 20
3.1838998429
  0
LWPOLYLINE
  5
F9
330
1F
100
AcDbEntity
  8
0
  6
Continuous
 62
     1
370
    25
100
AcDbPolyline
 90
       48
 70
   128
 43
0.0
 10
245.1020778583
 20
29.888825324
 10
245.5874903399
 20
29.4447692936
 10
246.0494094186
 20
28.9265447848
 10
246.4677387112
 20
28.3512123095
 10
246.8408272629
 20
27.7210424424
 10
247.1672026637
 20
27.0385221759
 10
247.4455768591
 20
26.3063451057
 10
247.6748512333
 20
25.5274008002
 10
247.854120945
 20
24.7047633968
 10
247.9826784986
 20
23.8416794694
 10
248.0600165361
 20
22.941555216
 10
248.0858298397
 20
22.0079430158
 10
248.0600165361
 20
21.0445274096
 10
247.9826784986
 20
20.0551105586
 10
247.854120945
 20
19.0435972393
 10
247.6748512333
 20
18.0139794324
 10
247.4455768591
 20
16.9703205692
 10
247.1672026637
 20
15.9167394943
 10
246.8408272629
 20
14.8573942109
 10
246.4677387112
 20
13.7964654709
 10
246.0494094186
 20
12.7381402753
 10
245.5874903399
 20
11.6865953502
 10
245.0838044586
 20
10.6459806629
 10
244.5403395927
 20
9.6204030443
 10
243.9592405497
 20
8.6139099806
 10
243.3428006622
 20
7.6304736402
 10
242.6934527367
 20
6.673975197
 10
242.0137594528
 20
5.7481895134
 10
241.3064032494
 20
4.8567702425
 10
240.5741757384
 20
4.0032354089
 10
239.819966687
 20
3.1909535247
 10
239.0467526139
 20
2.4231302954
 10
238.2575850419
 20
1.7027959684
 10
237.4555784547
 20
1.0327933743
 10
236.643898006
 20
0.4157667073
 10
235.8257470276
 20
-0.1458489104
 10
235.0043543878
 20
-0.6498370385
 10
234.182961748
 20
-1.094208666
 10
233.3648107696
 20
-1.4772100612
 10
232.5531303209
 20
-1.7973296925
 10
231.7511237337
 20
-2.053304194
 10
230.9619561616
 20
-2.2441233513
 10
230.1887420886
 20
-2.3690340883
 10
229.4345330372
 20
-2.4275434395
 10
228.7023055261
 20
-2.4194204951
 10
227.9949493228
 20
-2.3446973127
 10
227.3152560389
 20
-2.2036687906
 10
226.746220982
 20
-2.026632712
  0
LINE
  5
FA
330
1F
100
AcDbEntity
  8
0
  6
Continuous
 62
     7
370
    25
100
AcDbLine
 10
120.8323425481
 20
61.7651873405
 30
0.0
 11
120.8323425481
 21
50.7651873405
 31
0.0
  0
LINE
  5
FB
330
1F
100
AcDbEntity
  8
0
  6
Continuous
 62
     7
370
    25
100
AcDbLine
 10
158.8323425481
 20
50.7651873405
 30
0.0
 11
158.8323425481
 21
61.7651873405
 31
0.0
  0
LINE
  5
FC
330
1F
100
AcDbEntity
  8
0
  6
Continuous
 62
     7
370
    25
100
AcDbLine
 10
121.3323425481
 20
42.7651873405
 30
0.0
 11
121.3323425481
 21
24.2651873405
 31
0.0
  0
LINE
  5
FD
330
1F
100
AcDbEntity
  8
0
  6
Continuous
 62
     7
370
    25
100
AcDbLine
 10
158.3323425481
 20
24.2651873405
 30
0.0
 11
158.3323425481
 21
42.7651873405
 31
0.0
  0
ARC
  5
FE
330
1F
100
AcDbEntity
  8
0
  6
Continuous
 62
     7
370
    25
100
AcDbCircle
 10
121.8323425481
 20
24.2651873405
 30
0.0
 40
0.5000000000000142
100
AcDbArc
 50
180.0
 51
270.0
  0
ARC
  5
FF
330
1F
100
AcDbEntity
  8
0
  6
Continuous
 62
     7
370
    25
100
AcDbCircle
 10
157.8323425481
 20
24.2651873405
 30
0.0
 40
0.5000000000000036
100
AcDbArc
 50
270.0
 51
0.0
  0
LINE
  5
100
330
1F
100
AcDbEntity
  8
0
  6
Continuous
 62
     7
370
    25
100
AcDbLine
 10
123.8323425481
 20
23.7651873405
 30
0.0
 11
123.8323425481
 21
-23.2348126595
 31
0.0
  0
LINE
  5
101
330
1F
100
AcDbEntity
  8
0
  6
Continuous
 62
     7
370
    25
100
AcDbLine
 10
155.8323425481
 20
-23.2348126595
 30
0.0
 11
155.8323425481
 21
23.7651873405
 31
0.0
  0
LINE
  5
102
330
1F
100
AcDbEntity
  8
0
  6
Continuous
 62
     7
370
    25
100
AcDbLine
 10
139.8323425481
 20
42.7651873405
 30
0.0
 11
139.8323425481
 21
50.7651873405
 31
0.0
  0
LINE
  5
103
330
1F
100
AcDbEntity
  8
0
  6
Continuous
 62
     7
370
    25
100
AcDbLine
 10
139.8323425481
 20
42.7651873405
 30
0.0
 11
119.3323425481
 21
42.7651873405
 31
0.0
  0
LINE
  5
104
330
1F
100
AcDbEntity
  8
0
  6
Continuous
 62
     7
370
    25
100
AcDbLine
 10
119.3323425481
 20
42.7651873405
 30
0.0
 11
119.3323425481
 21
50.7651873405
 31
0.0
  0
LINE
  5
105
330
1F
100
AcDbEntity
  8
0
  6
Continuous
 62
     7
370
    25
100
AcDbLine
 10
139.8323425481
 20
50.7651873405
 30
0.0
 11
119.3323425481
 21
50.7651873405
 31
0.0
  0
LINE
  5
106
330
1F
100
AcDbEntity
  8
0
  6
Continuous
 62
     7
370
    25
100
AcDbLine
 10
160.3323425481
 20
42.7651873405
 30
0.0
 11
160.3323425481
 21
50.7651873405
 31
0.0
  0
LINE
  5
107
330
1F
100
AcDbEntity
  8
0
  6
Continuous
 62
     7
370
    25
100
AcDbLine
 10
160.3323425481
 20
42.7651873405
 30
0.0
 11
139.8323425481
 21
42.7651873405
 31
0.0
  0
LINE
  5
108
330
1F
100
AcDbEntity
  8
0
  6
Continuous
 62
     7
370
    25
100
AcDbLine
 10
160.3323425481
 20
50.7651873405
 30
0.0
 11
139.8323425481
 21
50.7651873405
 31
0.0
  0
LINE
  5
109
330
1F
100
AcDbEntity
  8
0
  6
Continuous
 62
     7
370
    25
100
AcDbLine
 10
120.8323425481
 20
61.7651873405
 30
0.0
 11
158.8323425481
 21
61.7651873405
 31
0.0
  0
LINE
  5
10A
330
1F
100
AcDbEntity
  8
0
  6
Continuous
 62
     7
370
    25
100
AcDbLine
 10
121.8323425481
 20
23.7651873405
 30
0.0
 11
157.8323425458
 21
23.7651873405
 31
0.0
  0
LINE
  5
10B
330
1F
100
AcDbEntity
  8
0
  6
Continuous
 62
     7
370
    25
100
AcDbLine
 10
123.8323425481
 20
-23.2348126595
 30
0.0
 11
155.8323425481
 21
-23.2348126595
 31
0.0
  0
LINE
  5
10C
330
1F
100
AcDbEntity
  8
0
  6
Continuous
 62
     1
370
    25
100
AcDbLine
 10
121.3323425481
 20
24.2651873405
 30
0.0
 11
158.3323425481
 21
24.2651873405
 31
0.0
  0
ENDSEC
  0
SECTION
  2
OBJECTS
  0
DICTIONARY
  5
C
330
0
100
AcDbDictionary
281
     1
  3
ACAD_GROUP
350
D
  3
ACAD_LAYOUT
350
1A
  3
ACAD_MLINESTYLE
350
17
  3
ACAD_PLOTSETTINGS
350
19
  3
ACAD_PLOTSTYLENAME
350
E
  3
ACAD_SCALELIST
350
47
  3
DWGPROPS
350
10D
  0
DICTIONARY
  5
D
102
{ACAD_REACTORS
330
C
102
}
330
C
100
AcDbDictionary
281
     1
  0
DICTIONARY
  5
1A
102
{ACAD_REACTORS
330
C
102
}
330
C
100
AcDbDictionary
281
     1
  3
Layout1
350
1E
  3
Layout2
350
26
  3
Model
350
22
  0
DICTIONARY
  5
17
102
{ACAD_REACTORS
330
C
102
}
330
C
100
AcDbDictionary
281
     1
  3
Standard
350
18
  0
DICTIONARY
  5
19
102
{ACAD_REACTORS
330
C
102
}
330
C
100
AcDbDictionary
281
     1
  0
ACDBDICTIONARYWDFLT
  5
E
102
{ACAD_REACTORS
330
C
102
}
330
C
100
AcDbDictionary
281
     1
  3
Normal
350
F
100
AcDbDictionaryWithDefault
340
F
  0
DICTIONARY
  5
47
102
{ACAD_REACTORS
330
C
102
}
330
C
100
AcDbDictionary
281
     1
  3
A0
350
48
  3
A1
350
49
  3
A2
350
4A
  3
A3
350
4B
  3
A4
350
4C
  3
A5
350
4D
  3
A6
350
4E
  3
A7
350
4F
  3
A8
350
50
  3
A9
350
51
  3
B0
350
52
  3
B1
350
53
  3
B2
350
54
  3
B3
350
55
  3
B4
350
56
  3
B5
350
57
  3
B6
350
58
  3
B7
350
59
  3
B8
350
5A
  3
B9
350
5B
  3
C0
350
5C
  3
C1
350
5D
  3
C2
350
5E
  3
C3
350
5F
  3
C4
350
60
  3
C5
350
61
  3
C6
350
62
  3
C7
350
63
  3
C8
350
64
  3
C9
350
65
  3
D0
350
66
  3
D1
350
67
  3
D2
350
68
  0
XRECORD
  5
10D
102
{ACAD_REACTORS
330
C
102
}
330
C
100
AcDbXrecord
280
     1
  1
DWGPROPS COOKIE
  2

  3

  4

  6

  7

  8
b.kav
  9

300
=
301
=
302
=
303
=
304
=
305
=
306
=
307
=
308
=
309
=
 40
0.0
 41
2459935.584482084
 42
2459935.584482257
  1

 90
        0
  0
LAYOUT
  5
1E
102
{ACAD_REACTORS
330
1A
102
}
330
1A
100
AcDbPlotSettings
  1

  2
none_device
  4

  6

 40
0.0
 41
0.0
 42
0.0
 43
0.0
 44
0.0
 45
0.0
 46
0.0
 47
0.0
 48
0.0
 49
0.0
140
0.0
141
0.0
142
1.0
143
1.0
 70
   688
 72
     1
 73
     0
 74
     5
  7

 75
    16
147
1.0
148
0.0
149
0.0
100
AcDbLayout
  1
Layout1
 70
     1
 71
     1
 10
0.0
 20
0.0
 11
420.0
 21
297.0
 12
0.0
 22
0.0
 32
0.0
 14
1.0000000000E+20
 24
1.0000000000E+20
 34
1.0000000000E+20
 15
-1.0000000000E+20
 25
-1.0000000000E+20
 35
-1.0000000000E+20
146
0.0
 13
0.0
 23
0.0
 33
0.0
 16
1.0
 26
0.0
 36
0.0
 17
0.0
 27
1.0
 37
0.0
 76
     0
330
1B
  0
LAYOUT
  5
26
102
{ACAD_REACTORS
330
1A
102
}
330
1A
100
AcDbPlotSettings
  1

  2
none_device
  4

  6

 40
0.0
 41
0.0
 42
0.0
 43
0.0
 44
0.0
 45
0.0
 46
0.0
 47
0.0
 48
0.0
 49
0.0
140
0.0
141
0.0
142
1.0
143
1.0
 70
   688
 72
     1
 73
     0
 74
     5
  7

 75
    16
147
1.0
148
0.0
149
0.0
100
AcDbLayout
  1
Layout2
 70
     1
 71
     2
 10
0.0
 20
0.0
 11
0.0
 21
0.0
 12
0.0
 22
0.0
 32
0.0
 14
0.0
 24
0.0
 34
0.0
 15
0.0
 25
0.0
 35
0.0
146
0.0
 13
0.0
 23
0.0
 33
0.0
 16
1.0
 26
0.0
 36
0.0
 17
0.0
 27
1.0
 37
0.0
 76
     0
330
23
  0
LAYOUT
  5
22
102
{ACAD_REACTORS
330
1A
102
}
330
1A
100
AcDbPlotSettings
  1

  2
none_device
  4
Letter_(8.50_x_11.00_Inches)
  6

 40
6.35
 41
6.35
 42
6.35000508
 43
6.35000508
 44
215.9
 45
279.4
 46
0.0
 47
0.0
 48
0.0
 49
0.0
140
0.0
141
0.0
142
1.0
143
1.0
 70
  1712
 72
     1
 73
     0
 74
     0
  7

 75
     0
147
1.0
148
0.0
149
0.0
100
AcDbLayout
  1
Model
 70
     1
 71
     0
 10
0.0
 20
0.0
 11
279.4
 21
215.9
 12
0.0
 22
0.0
 32
0.0
 14
0.0
 24
0.0
 34
0.0
 15
279.4
 25
215.9
 35
0.0
146
0.0
 13
0.0
 23
0.0
 33
0.0
 16
1.0
 26
0.0
 36
0.0
 17
0.0
 27
1.0
 37
0.0
 76
     0
330
1F
331
29
  0
MLINESTYLE
  5
18
102
{ACAD_REACTORS
330
17
102
}
330
17
100
AcDbMlineStyle
  2
Standard
 70
     0
  3

 62
   256
 51
90.0
 52
90.0
 71
     2
 49
0.5
 62
   256
  6
BYLAYER
 49
-0.5
 62
   256
  6
BYLAYER
  0
ACDBPLACEHOLDER
  5
F
102
{ACAD_REACTORS
330
E
102
}
330
E
  0
SCALE
  5
48
102
{ACAD_REACTORS
330
47
102
}
330
47
100
AcDbScale
 70
     0
300
1:1
140
1.0
141
1.0
290
     1
  0
SCALE
  5
49
102
{ACAD_REACTORS
330
47
102
}
330
47
100
AcDbScale
 70
     0
300
1:2
140
1.0
141
2.0
290
     0
  0
SCALE
  5
4A
102
{ACAD_REACTORS
330
47
102
}
330
47
100
AcDbScale
 70
     0
300
1:4
140
1.0
141
4.0
290
     0
  0
SCALE
  5
4B
102
{ACAD_REACTORS
330
47
102
}
330
47
100
AcDbScale
 70
     0
300
1:5
140
1.0
141
5.0
290
     0
  0
SCALE
  5
4C
102
{ACAD_REACTORS
330
47
102
}
330
47
100
AcDbScale
 70
     0
300
1:8
140
1.0
141
8.0
290
     0
  0
SCALE
  5
4D
102
{ACAD_REACTORS
330
47
102
}
330
47
100
AcDbScale
 70
     0
300
1:10
140
1.0
141
10.0
290
     0
  0
SCALE
  5
4E
102
{ACAD_REACTORS
330
47
102
}
330
47
100
AcDbScale
 70
     0
300
1:16
140
1.0
141
16.0
290
     0
  0
SCALE
  5
4F
102
{ACAD_REACTORS
330
47
102
}
330
47
100
AcDbScale
 70
     0
300
1:20
140
1.0
141
20.0
290
     0
  0
SCALE
  5
50
102
{ACAD_REACTORS
330
47
102
}
330
47
100
AcDbScale
 70
     0
300
1:30
140
1.0
141
30.0
290
     0
  0
SCALE
  5
51
102
{ACAD_REACTORS
330
47
102
}
330
47
100
AcDbScale
 70
     0
300
1:40
140
1.0
141
40.0
290
     0
  0
SCALE
  5
52
102
{ACAD_REACTORS
330
47
102
}
330
47
100
AcDbScale
 70
     0
300
1:50
140
1.0
141
50.0
290
     0
  0
SCALE
  5
53
102
{ACAD_REACTORS
330
47
102
}
330
47
100
AcDbScale
 70
     0
300
1:100
140
1.0
141
100.0
290
     0
  0
SCALE
  5
54
102
{ACAD_REACTORS
330
47
102
}
330
47
100
AcDbScale
 70
     0
300
2:1
140
2.0
141
1.0
290
     0
  0
SCALE
  5
55
102
{ACAD_REACTORS
330
47
102
}
330
47
100
AcDbScale
 70
     0
300
4:1
140
4.0
141
1.0
290
     0
  0
SCALE
  5
56
102
{ACAD_REACTORS
330
47
102
}
330
47
100
AcDbScale
 70
     0
300
8:1
140
8.0
141
1.0
290
     0
  0
SCALE
  5
57
102
{ACAD_REACTORS
330
47
102
}
330
47
100
AcDbScale
 70
     0
300
10:1
140
10.0
141
1.0
290
     0
  0
SCALE
  5
58
102
{ACAD_REACTORS
330
47
102
}
330
47
100
AcDbScale
 70
     0
300
100:1
140
100.0
141
1.0
290
     0
  0
SCALE
  5
59
102
{ACAD_REACTORS
330
47
102
}
330
47
100
AcDbScale
 70
     0
300
1/128" = 1'-0"
140
0.0078125
141
12.0
290
     0
  0
SCALE
  5
5A
102
{ACAD_REACTORS
330
47
102
}
330
47
100
AcDbScale
 70
     0
300
1/64" = 1'-0"
140
0.015625
141
12.0
290
     0
  0
SCALE
  5
5B
102
{ACAD_REACTORS
330
47
102
}
330
47
100
AcDbScale
 70
     0
300
1/32" = 1'-0"
140
0.03125
141
12.0
290
     0
  0
SCALE
  5
5C
102
{ACAD_REACTORS
330
47
102
}
330
47
100
AcDbScale
 70
     0
300
1/16" = 1'-0"
140
0.0625
141
12.0
290
     0
  0
SCALE
  5
5D
102
{ACAD_REACTORS
330
47
102
}
330
47
100
AcDbScale
 70
     0
300
3/32" = 1'-0"
140
0.09375
141
12.0
290
     0
  0
SCALE
  5
5E
102
{ACAD_REACTORS
330
47
102
}
330
47
100
AcDbScale
 70
     0
300
1/8" = 1'-0"
140
0.125
141
12.0
290
     0
  0
SCALE
  5
5F
102
{ACAD_REACTORS
330
47
102
}
330
47
100
AcDbScale
 70
     0
300
3/16" = 1'-0"
140
0.1875
141
12.0
290
     0
  0
SCALE
  5
60
102
{ACAD_REACTORS
330
47
102
}
330
47
100
AcDbScale
 70
     0
300
1/4" = 1'-0"
140
0.25
141
12.0
290
     0
  0
SCALE
  5
61
102
{ACAD_REACTORS
330
47
102
}
330
47
100
AcDbScale
 70
     0
300
3/8" = 1'-0"
140
0.375
141
12.0
290
     0
  0
SCALE
  5
62
102
{ACAD_REACTORS
330
47
102
}
330
47
100
AcDbScale
 70
     0
300
1/2" = 1'-0"
140
0.5
141
12.0
290
     0
  0
SCALE
  5
63
102
{ACAD_REACTORS
330
47
102
}
330
47
100
AcDbScale
 70
     0
300
3/4" = 1'-0"
140
0.75
141
12.0
290
     0
  0
SCALE
  5
64
102
{ACAD_REACTORS
330
47
102
}
330
47
100
AcDbScale
 70
     0
300
1" = 1'-0"
140
1.0
141
12.0
290
     0
  0
SCALE
  5
65
102
{ACAD_REACTORS
330
47
102
}
330
47
100
AcDbScale
 70
     0
300
1-1/2" = 1'-0"
140
1.5
141
12.0
290
     0
  0
SCALE
  5
66
102
{ACAD_REACTORS
330
47
102
}
330
47
100
AcDbScale
 70
     0
300
3" = 1'-0"
140
3.0
141
12.0
290
     0
  0
SCALE
  5
67
102
{ACAD_REACTORS
330
47
102
}
330
47
100
AcDbScale
 70
     0
300
6" = 1'-0"
140
6.0
141
12.0
290
     0
  0
SCALE
  5
68
102
{ACAD_REACTORS
330
47
102
}
330
47
100
AcDbScale
 70
     0
300
1'-0" = 1'-0"
140
12.0
141
12.0
290
     0
  0
ENDSEC
  0
EOF
